Слот От Заката До Рассвета аккорды - песня от заката до рассвета аккорды

Здесь вы можете не только скачать Слот - От Заката До Рассвета аккорды в mp3 формате, но и прослушать эту композицию онлайн, а также найти текст к песни и видеоклип

Исполнитель: Слот

Композиция: От Заката До Рассвета (аккорды)

Длительность mp3: 03:09

Добавлено: 2015-12-08

Просмотры: 690




Скачать

Все песни Слот
Текст песни:

Вступление:

E---------------------------------------------------------------4-----
B--5-------4-------------2-------0---------------5-------4------------
G--6-------------------------1-----------2-------6-----------------6--
D------6------------------------------2-----2--------6----------------
A--4-------2-------------0-------0---------------4-------2------------
E---------------------------------------------------------------------



----------------------------------------------------------------------
--------------------------5-------4-------------2-------0-------------
---------------------4---6-------------------------1-----------2-----
--------------------4---------6------------------------------2-----2--
--0-------------2--4-----4-------2-------------0-------0-------------
----------------------------------------------------------------------



-----------------2------2-----------------
--5-------4-------------------------------
--6---------------------------------------
------6-----------------------------------
--4-------2-------------0-----------------
------------------------------------------



Сm B A Cm
По частям просыпаются сны
B A
Снегом через край
Сm B A
По слогам рвётся шёпотом изнутри
B
Не забывай

Cm Gm
От заката до рассвета
B A
Вместе где-то в объятиях сна
Cm Gm A
А с разбега, открывая глаза
B Cm
Я просыпаюсь одна

Сm B
Птицы крик
A Cm
Падая, врывается в сон
B A
Бьётся взаперти
Сm B
На раз, два, три
A
Лови, я здесь со всех сторон
B
Или отпусти


Cm Gm
От заката до рассвета
B A
Вместе где-то в объятиях сна
Cm Gm A
А с разбега, открывая глаза
B Cm
Я просыпаюсь одна

Завтра, как вчера
Завтрак и дела
Волной распугают эти сны
Где ты и я
Не знаем что с утра
Дождём рассыпемся где-то

От заката до рассвета
Вместе где-то в объятиях сна
А с разбега, открывая глаза
Я просыпаюсь одна,
Опять просыпаюсь одна,
Снова одна.

Клип Слот - От Заката До Рассвета Видео Разбор (урок)
Добавить комментарий