Песни под гитару Я улетаю - песни под гитару я улетаю

Здесь вы можете не только скачать Песни под гитару - Я улетаю в mp3 формате, но и прослушать эту композицию онлайн, а также найти текст к песни и видеоклип

Исполнитель: Песни под гитару

Композиция: Я улетаю

Длительность mp3: 04:18

Добавлено: 2016-10-27

Просмотры: 482




Скачать

Все песни Песни под гитару
Текст песни:

Вступление:
Am F Dm E
e----0-----0-----0---1-----1-----1---1-----1-----1---0-----0-----0-
H------1-----1---------1-----1---------3-----3---------0-----0-----
G--------2-----2---------2-----2---------2-----2---------1-----1---
D------------------------------------------------------------------
A--0---------------3---------------0---------------2---------------
E------------------------------------------------------------------

Am F Dm E
e----0-----0-----0---1-----1-----1---1---1-3-1-0-----0-----0-----0-
H------1-----1---------1-----1---------3---------3-----0-----0-----
G--------2-----2---------2-----2-------------------------1-----1---
D------------------------------------------------------------------ / 2 раза
A--0---------------3---------------0---------------2--------------- /
E------------------------------------------------------------------ /

Куплет:
Am F Dm E
e----0-----0-----0---1-----1-----1---1---1-3-1-0-----0-----0-----0-
H------1-----1---------1-----1---------3---------3-----0-----0-----
G--------2-----2---------2-----2-------------------------1-----1---
D------------------------------------------------------------------
A--0---------------3---------------0---------------2---------------
E------------------------------------------------------------------

Am F Dm E Am
Я уже не буду больше летать на крыльях любви.
F Dm E Am
Я перестану по ночам спать, в том виновата ты.
F Dm E Am
Я постараюсь тебя забыть, но это само обман.
F Dm
Я только что пытался память залить,
E Am (здесь начинается бой)
в голове стоит пьяный дурман

F Dm E Am
И снова выпивка не лезет в рот и снова я забиваю косяк
F Dm E Am
Да в этой речке существует брод, но этот брод не для меня
F Dm E Am
Я рассыпаю перед собой план, я наливаю еще 200 грамм
F Dm E Am
Я выпиваю, курю и лечу, куда лечу, не знаю и сам...

Am F Dm E Am
Ты перестала ко мне приходить, ты стала избегать со мной встреч
F Dm E Am
Ты не желаешь мне звонить...
F Dm E Am
За то за ним ты бежишь как дитя, когда идет он под руку с другой
F Dm E Am
А мне почти плевать на тебя я развернусь и пойду домой

Припев

Am F Dm E Am
Да алкоголик я и наркоман, уже не раз игла касалась руки
F Dm E Am
Хотя посмотрим правде в глаза: я никогда ведь не был таким.
F Dm E Am
Успокоения искала душа, нашла легкий ноглубительный путь
F Dm E Am
Теперь игла, водка и анаша меня загубят когда-нибудь...

Припев

И снова сердце пробьет игла, и снова водка зальется в грудь
И умирая, кричала душа, пытаясь воплями жизнь вернуть
Но с каждым днем все, темнея в глазах и замерзает сердца стук.
И вот срывается последняя слеза и выпадает гитара из рук...

Клип Александр Негря "Я улетаю" песня под гитару
Добавить комментарий